  0
SECTION
  2
HEADER
  9
$ACADVER
  1
AC1009
  9
$INSBASE
 10
0.0
 20
0.0
 30
0.0
  9
$EXTMIN
 10
-0.6690906832587457
 20
-0.6690906832586178
 30
0.0
  9
$EXTMAX
 10
46.37829192697532
 20
30.66909068325862
 30
0.0
  9
$LIMMIN
 10
0.0
 20
0.0
  9
$LIMMAX
 10
420.0
 20
297.0
  9
$ORTHOMODE
 70
     1
  9
$REGENMODE
 70
     1
  9
$FILLMODE
 70
     1
  9
$QTEXTMODE
 70
     0
  9
$MIRRTEXT
 70
     0
  9
$DRAGMODE
 70
     2
  9
$LTSCALE
 40
1.0
  9
$OSMODE
 70
    32
  9
$ATTMODE
 70
     2
  9
$TEXTSIZE
 40
0.2
  9
$TRACEWID
 40
0.05
  9
$TEXTSTYLE
  7
STANDARD
  9
$CLAYER
  8
ITEM_25
  9
$CELTYPE
  6
BYLAYER
  9
$CECOLOR
 62
   256
  9
$DIMSCALE
 40
1.0
  9
$DIMASZ
 40
2.5
  9
$DIMEXO
 40
1.0
  9
$DIMDLI
 40
7.0
  9
$DIMRND
 40
0.0
  9
$DIMDLE
 40
0.0
  9
$DIMEXE
 40
2.0
  9
$DIMTP
 40
0.1
  9
$DIMTM
 40
0.1
  9
$DIMTXT
 40
3.5
  9
$DIMCEN
 40
0.0
  9
$DIMTSZ
 40
0.0
  9
$DIMTOL
 70
     0
  9
$DIMLIM
 70
     0
  9
$DIMTIH
 70
     0
  9
$DIMTOH
 70
     0
  9
$DIMSE1
 70
     0
  9
$DIMSE2
 70
     0
  9
$DIMTAD
 70
     1
  9
$DIMZIN
 70
     0
  9
$DIMBLK
  1

  9
$DIMASO
 70
     1
  9
$DIMSHO
 70
     1
  9
$DIMPOST
  1

  9
$DIMAPOST
  1

  9
$DIMALT
 70
     0
  9
$DIMALTD
 70
     2
  9
$DIMALTF
 40
0.0393701
  9
$DIMLFAC
 40
1.0
  9
$DIMTOFL
 70
     1
  9
$DIMTVP
 40
0.0
  9
$DIMTIX
 70
     0
  9
$DIMSOXD
 70
     0
  9
$DIMSAH
 70
     0
  9
$DIMBLK1
  1

  9
$DIMBLK2
  1

  9
$DIMSTYLE
  2
GEN-ISO
  9
$DIMCLRD
 70
   256
  9
$DIMCLRE
 70
   256
  9
$DIMCLRT
 70
     2
  9
$DIMTFAC
 40
0.71
  9
$DIMGAP
 40
0.6
  9
$LUNITS
 70
     2
  9
$LUPREC
 70
     2
  9
$SKETCHINC
 40
0.1
  9
$FILLETRAD
 40
2.5
  9
$AUNITS
 70
     0
  9
$AUPREC
 70
     0
  9
$MENU
  1

  9
$ELEVATION
 40
0.0
  9
$PELEVATION
 40
0.0
  9
$THICKNESS
 40
0.0
  9
$LIMCHECK
 70
     0
  9
$BLIPMODE
 70
     0
  9
$CHAMFERA
 40
2.5
  9
$CHAMFERB
 40
2.5
  9
$SKPOLY
 70
     0
  9
$TDCREATE
 40
2450143.347491435
  9
$TDUPDATE
 40
2450185.436967245
  9
$TDINDWG
 40
0.1153612269
  9
$TDUSRTIMER
 40
0.1153612269
  9
$USRTIMER
 70
     1
  9
$ANGBASE
 50
0.0
  9
$ANGDIR
 70
     0
  9
$PDMODE
 70
     3
  9
$PDSIZE
 40
0.0
  9
$PLINEWID
 40
0.0
  9
$COORDS
 70
     1
  9
$SPLFRAME
 70
     0
  9
$SPLINETYPE
 70
     6
  9
$SPLINESEGS
 70
     8
  9
$ATTDIA
 70
     1
  9
$ATTREQ
 70
     1
  9
$HANDLING
 70
     1
  9
$HANDSEED
  5
167
  9
$SURFTAB1
 70
     6
  9
$SURFTAB2
 70
     6
  9
$SURFTYPE
 70
     6
  9
$SURFU
 70
     6
  9
$SURFV
 70
     6
  9
$UCSNAME
  2

  9
$UCSORG
 10
0.0
 20
0.0
 30
0.0
  9
$UCSXDIR
 10
1.0
 20
0.0
 30
0.0
  9
$UCSYDIR
 10
0.0
 20
1.0
 30
0.0
  9
$PUCSNAME
  2

  9
$PUCSORG
 10
0.0
 20
0.0
 30
0.0
  9
$PUCSXDIR
 10
1.0
 20
0.0
 30
0.0
  9
$PUCSYDIR
 10
0.0
 20
1.0
 30
0.0
  9
$USERI1
 70
     0
  9
$USERI2
 70
     0
  9
$USERI3
 70
     0
  9
$USERI4
 70
     0
  9
$USERI5
 70
     0
  9
$USERR1
 40
0.0
  9
$USERR2
 40
0.0
  9
$USERR3
 40
0.0
  9
$USERR4
 40
0.0
  9
$USERR5
 40
0.0
  9
$WORLDVIEW
 70
     1
  9
$SHADEDGE
 70
     3
  9
$SHADEDIF
 70
    70
  9
$TILEMODE
 70
     1
  9
$MAXACTVP
 70
    16
  9
$PINSBASE
 10
0.0
 20
0.0
 30
0.0
  9
$PLIMCHECK
 70
     0
  9
$PEXTMIN
 10
1.000000000000000E+20
 20
1.000000000000000E+20
 30
1.000000000000000E+20
  9
$PEXTMAX
 10
-1.000000000000000E+20
 20
-1.000000000000000E+20
 30
-1.000000000000000E+20
  9
$PLIMMIN
 10
0.0
 20
0.0
  9
$PLIMMAX
 10
12.0
 20
9.0
  9
$UNITMODE
 70
     0
  9
$VISRETAIN
 70
     0
  9
$PLINEGEN
 70
     0
  9
$PSLTSCALE
 70
     1
  9
$TREEDEPTH
 70
  3020
  9
$DWGCODEPAGE
  3
dos850
  0
ENDSEC
  0
SECTION
  2
TABLES
  0
TABLE
  2
VPORT
 70
     2
  0
VPORT
  2
*ACTIVE
 70
     0
 10
0.0
 20
0.0
 11
1.0
 21
1.0
 12
22.64749384067174
 22
17.6087404054157
 13
0.0
 23
0.0
 14
1.0
 24
1.0
 15
10.0
 25
10.0
 16
0.0
 26
0.0
 36
1.0
 17
0.0
 27
0.0
 37
0.0
 40
36.55566217734864
 41
1.275675675675675
 42
50.0
 43
0.0
 44
0.0
 50
0.0
 51
0.0
 71
     0
 72
   100
 73
     1
 74
     0
 75
     0
 76
     0
 77
     0
 78
     0
  0
ENDTAB
  0
TABLE
  2
LTYPE
 70
     2
  0
LTYPE
  2
CONTINUOUS
 70
    64
  3
Solid line
 72
    65
 73
     0
 40
0.0
  0
LTYPE
  2
GEN7
 70
     0
  3
____ . ____ . ____ . ____ . ____ . ____ . ____
 72
    65
 73
     4
 40
15.0
 49
10.0
 49
-2.5
 49
0.0
 49
-2.5
  0
ENDTAB
  0
TABLE
  2
LAYER
 70
     4
  0
LAYER
  2
0
 70
    64
 62
     7
  6
CONTINUOUS
  0
LAYER
  2
ITEM_50
 70
    64
 62
     7
  6
CONTINUOUS
  0
LAYER
  2
ITEM_25
 70
    64
 62
     3
  6
CONTINUOUS
  0
LAYER
  2
ITEM_HILFE
 70
    64
 62
     3
  6
CONTINUOUS
  0
ENDTAB
  0
TABLE
  2
STYLE
 70
     1
  0
STYLE
  2
STANDARD
 70
     0
 40
0.0
 41
1.0
 50
0.0
 71
     0
 42
0.2
  3
GENISO.SHX
  4

  0
ENDTAB
  0
TABLE
  2
VIEW
 70
     0
  0
ENDTAB
  0
TABLE
  2
UCS
 70
     0
  0
ENDTAB
  0
TABLE
  2
APPID
 70
     8
  0
APPID
  2
ACAD
 70
    64
  0
ENDTAB
  0
TABLE
  2
DIMSTYLE
 70
     1
  0
DIMSTYLE
  2
GEN-ISO
 70
     0
  3

  4

  5

  6

  7

 40
1.0
 41
2.5
 42
1.0
 43
7.0
 44
2.0
 45
0.0
 46
0.0
 47
0.1
 48
0.1
140
3.5
141
0.0
142
0.0
143
0.0393701
144
1.0
145
0.0
146
0.71
147
0.6
 71
     0
 72
     0
 73
     0
 74
     0
 75
     0
 76
     0
 77
     1
 78
     8
170
     0
171
     2
172
     1
173
     0
174
     0
175
     0
176
   256
177
   256
178
     2
  0
ENDTAB
  0
ENDSEC
  0
SECTION
  2
BLOCKS
  0
ENDSEC
  0
SECTION
  2
ENTITIES
  0
ARC
  8
ITEM_50
  5
BF
 10
43.96407836460223
 20
28.0
 30
0.0
 40
2.0
 50
0.0
 51
90.0
  0
LINE
  8
ITEM_50
  5
C0
 10
42.96407836460223
 20
0.0000000000000568
 30
0.0
 11
42.96407836460223
 21
30.0
 31
0.0
  0
ARC
  8
ITEM_50
  5
C1
 10
43.96407836460223
 20
2.0
 30
0.0
 40
2.0
 50
270.0
 51
0.0
  0
LINE
  8
0
  5
C2
 10
42.96407836460223
 20
0.0000000000000568
 30
0.0
 11
42.96407836460223
 21
0.0
 31
0.0
  0
LINE
  8
ITEM_50
  5
C3
 10
45.96407836460223
 20
28.0
 30
0.0
 11
45.96407836460223
 21
2.0
 31
0.0
  0
LINE
  8
ITEM_50
  5
C4
 10
42.96407836460223
 20
30.0
 30
0.0
 11
43.96407836460223
 21
30.0
 31
0.0
  0
LINE
  8
ITEM_50
  5
C5
 10
43.96407836460223
 20
0.0
 30
0.0
 11
42.96407836460223
 21
0.0000000000000568
 31
0.0
  0
LINE
  8
ITEM_50
  5
11D
 10
2.999999999999872
 20
30.00000000000001
 30
0.0
 11
26.99999999999998
 21
30.00000000000001
 31
0.0
  0
ARC
  8
ITEM_50
  5
11E
 10
26.99999999999998
 20
27.0
 30
0.0
 40
3.0
 50
0.0
 51
90.0
  0
LINE
  8
ITEM_50
  5
11F
 10
29.99999999999984
 20
27.0
 30
0.0
 11
29.99999999999984
 21
3.0
 31
0.0
  0
ARC
  8
ITEM_50
  5
120
 10
26.99999999999987
 20
3.0
 30
0.0
 40
3.0
 50
270.0
 51
0.0
  0
LINE
  8
ITEM_50
  5
121
 10
26.99999999999987
 20
0.0000000000000107
 30
0.0
 11
2.999999999999985
 21
0.0
 31
0.0
  0
ARC
  8
ITEM_50
  5
122
 10
2.999999999999985
 20
3.0
 30
0.0
 40
3.0
 50
180.0
 51
270.0
  0
LINE
  8
ITEM_50
  5
123
 10
-0.0000000000000142
 20
2.999999999999985
 30
0.0
 11
-0.0000000000001137
 21
26.99999999999998
 31
0.0
  0
ARC
  8
ITEM_50
  5
124
 10
2.999999999999872
 20
27.0
 30
0.0
 40
3.0
 50
90.0
 51
180.0
  0
POINT
  8
ITEM_HILFE
  5
12A
 10
0.0
 20
0.0
 30
0.0
  0
POINT
  8
ITEM_HILFE
  5
12B
 10
29.99999999999984
 20
0.0000000000000071
 30
0.0
  0
POINT
  8
ITEM_HILFE
  5
12C
 10
29.99999999999998
 20
30.0
 30
0.0
  0
POINT
  8
ITEM_HILFE
  5
12D
 10
-0.0000000000001279
 20
30.0
 30
0.0
  0
POINT
  8
ITEM_HILFE
  5
12E
 10
42.96407836460223
 20
30.0
 30
0.0
  0
POINT
  8
ITEM_HILFE
  5
12F
 10
42.96407836460223
 20
0.0000000000000568
 30
0.0
  0
LINE
  8
ITEM_25
  5
14A
 10
2.999999999999872
 20
28.00000000000001
 30
0.0
 11
26.99999999999998
 21
28.00000000000001
 31
0.0
  0
LINE
  8
ITEM_25
  5
14F
 10
1.999999999999985
 20
2.999999999999994
 30
0.0
 11
1.999999999999886
 21
26.99999999999999
 31
0.0
  0
LINE
  8
ITEM_25
  5
154
 10
26.99999999999987
 20
2.00000000000001
 30
0.0
 11
2.999999999999984
 21
2.0
 31
0.0
  0
LINE
  8
ITEM_25
  5
159
 10
27.99999999999984
 20
27.0
 30
0.0
 11
27.99999999999984
 21
3.0
 31
0.0
  0
POINT
  8
ITEM_HILFE
  5
162
 10
14.99999999999992
 20
15.00000000000004
 30
0.0
  0
ENDSEC
  0
EOF
